ISO-10303-21;
HEADER;
/****************************************************************
 * Generated by software with PDE/Lib inside                    *
 * PDElib Version v51a, created Fri 05/18/2009                  *
 * International Technegroup Inc. (www.iti-oh.com)              *
 ****************************************************************/
FILE_DESCRIPTION((''),'2;1');
FILE_NAME('U:\\AWH\\Konstruktion\\1 Rohrverbindungen\\Alu Losflansch\\Alu-Losflansch DN015 d22.stp','2010-11-29T13:57:02',('prost'),(''),'Autodesk Inventor 2010','Autodesk Inventor 2010','');
FILE_SCHEMA(('AUTOMOTIVE_DESIGN { 1 0 10303 214 1 1 1 1 }'));
ENDSEC;
DATA;
#5=APPLICATION_CONTEXT('automotive design');
#6=APPLICATION_PROTOCOL_DEFINITION('International Standard','automotive_design',2001,#5);
#7=PRODUCT_CONTEXT('',#5,'mechanical');
#8=PRODUCT('089005_Alu-Losflansch DN15','089005_Alu-Losflansch DN15',$,(#7));
#9=PRODUCT_RELATED_PRODUCT_CATEGORY('part',$,(#8));
#10=PRODUCT_DEFINITION_FORMATION('',$,#8);
#11=PRODUCT_DEFINITION_CONTEXT('part definition',#5,'design');
#12=PRODUCT_DEFINITION('',$,#10,#11);
#18=(NAMED_UNIT(*)PLANE_ANGLE_UNIT()SI_UNIT($,.RADIAN.));
#19=DIMENSIONAL_EXPONENTS(0.0,0.0,0.0,0.0,0.0,0.0,0.0);
#20=PLANE_ANGLE_MEASURE_WITH_UNIT(PLANE_ANGLE_MEASURE(0.017453292500000),#18);
#24=(CONVERSION_BASED_UNIT('DEGREE',#20)NAMED_UNIT(#19)PLANE_ANGLE_UNIT());
#28=(NAMED_UNIT(*)SI_UNIT($,.STERADIAN.)SOLID_ANGLE_UNIT());
#32=(LENGTH_UNIT()NAMED_UNIT(*)SI_UNIT(.MILLI.,.METRE.));
#34=UNCERTAINTY_MEASURE_WITH_UNIT(LENGTH_MEASURE(0.010000000000000),#32,'DISTANCE_ACCURACY_VALUE','');
#36=(GEOMETRIC_REPRESENTATION_CONTEXT(3)GLOBAL_UNCERTAINTY_ASSIGNED_CONTEXT((#34))GLOBAL_UNIT_ASSIGNED_CONTEXT((#24,#28,#32))REPRESENTATION_CONTEXT('None','None'));
#37=AXIS2_PLACEMENT_3D('',#38,#39,#40);
#38=CARTESIAN_POINT('',(0.0,0.0,0.0));
#39=DIRECTION('',(0.0,0.0,1.0));
#40=DIRECTION('',(1.0,0.0,0.0));
#41=SHAPE_REPRESENTATION('',(#37),#36);
#42=PRODUCT_DEFINITION_SHAPE('','',#12);
#43=SHAPE_DEFINITION_REPRESENTATION(#42,#41);
#49=(NAMED_UNIT(*)PLANE_ANGLE_UNIT()SI_UNIT($,.RADIAN.));
#50=DIMENSIONAL_EXPONENTS(0.0,0.0,0.0,0.0,0.0,0.0,0.0);
#51=PLANE_ANGLE_MEASURE_WITH_UNIT(PLANE_ANGLE_MEASURE(0.017453292500000),#49);
#55=(CONVERSION_BASED_UNIT('DEGREE',#51)NAMED_UNIT(#50)PLANE_ANGLE_UNIT());
#59=(NAMED_UNIT(*)SI_UNIT($,.STERADIAN.)SOLID_ANGLE_UNIT());
#63=(LENGTH_UNIT()NAMED_UNIT(*)SI_UNIT(.MILLI.,.METRE.));
#65=UNCERTAINTY_MEASURE_WITH_UNIT(LENGTH_MEASURE(0.000001000000000),#63,'DISTANCE_ACCURACY_VALUE','');
#67=(GEOMETRIC_REPRESENTATION_CONTEXT(3)GLOBAL_UNCERTAINTY_ASSIGNED_CONTEXT((#65))GLOBAL_UNIT_ASSIGNED_CONTEXT((#55,#59,#63))REPRESENTATION_CONTEXT('','3D'));
#68=CARTESIAN_POINT('',(0.0,-7.000000000000007,-32.500000000000000));
#69=CARTESIAN_POINT('',(-13.999999999999986,-7.000000000000007,-32.500000000000000));
#70=CARTESIAN_POINT('',(0.0,-7.000000000000006,-39.500000000000000));
#71=CARTESIAN_POINT('',(-13.999999999999986,-7.000000000000006,-39.500000000000000));
#72=CARTESIAN_POINT('',(0.0,-5.970153E-015,-39.500000000000000));
#73=CARTESIAN_POINT('',(-13.999999999999986,-5.970153E-015,-39.500000000000000));
#74=CARTESIAN_POINT('',(0.0,6.999999999999993,-39.500000000000000));
#75=CARTESIAN_POINT('',(-13.999999999999986,6.999999999999993,-39.500000000000000));
#76=CARTESIAN_POINT('',(0.0,6.999999999999995,-32.500000000000000));
#77=CARTESIAN_POINT('',(-13.999999999999986,6.999999999999995,-32.500000000000000));
#78=CARTESIAN_POINT('',(0.0,6.999999999999993,-25.499999999999996));
#79=CARTESIAN_POINT('',(-13.999999999999986,6.999999999999993,-25.499999999999996));
#80=CARTESIAN_POINT('',(0.0,-5.970153E-015,-25.500000000000000));
#81=CARTESIAN_POINT('',(-13.999999999999986,-5.970153E-015,-25.500000000000000));
#82=CARTESIAN_POINT('',(0.0,-7.000000000000006,-25.499999999999996));
#83=CARTESIAN_POINT('',(-13.999999999999986,-7.000000000000006,-25.499999999999996));
#84=CARTESIAN_POINT('',(0.0,-7.000000000000007,-32.500000000000000));
#85=CARTESIAN_POINT('',(-13.999999999999986,-7.000000000000007,-32.500000000000000));
#93=(BOUNDED_SURFACE()B_SPLINE_SURFACE(1,2,((#68,#70,#72,#74,#76,#78,#80,#82,#84),(#69,#71,#73,#75,#77,#79,#81,#83,#85)),.UNSPECIFIED.,.F.,.T.,.U.)B_SPLINE_SURFACE_WITH_KNOTS((2,2),(3,2,2,2,3),(-19.296822197936514,-17.296822197936514),(0.0,10.995574287564278,21.991148575128555,32.986722862692829,43.982297150257111),.UNSPECIFIED.)GEOMETRIC_REPRESENTATION_ITEM()RATIONAL_B_SPLINE_SURFACE(((1.0,0.707106781186548,1.0,0.707106781186548,1.0,0.707106781186548,1.0,0.707106781186548,1.0),(1.0,0.707106781186548,1.0,0.707106781186548,1.0,0.707106781186548,1.0,0.707106781186548,1.0)))REPRESENTATION_ITEM('')SURFACE());
#94=CARTESIAN_POINT('',(-14.000000000000004,-7.000000000000006,-32.500000000000000));
#95=VERTEX_POINT('',#94);
#96=CARTESIAN_POINT('',(-14.000000000000004,-5.970153E-015,-32.500000000000000));
#97=DIRECTION('',(1.0,0.0,0.0));
#98=DIRECTION('',(0.0,1.0,0.0));
#99=AXIS2_PLACEMENT_3D('',#96,#97,#98);
#100=CIRCLE('',#99,7.000000000000001);
#101=EDGE_CURVE('',#95,#95,#100,.T.);
#102=ORIENTED_EDGE('',*,*,#101,.F.);
#103=EDGE_LOOP('',(#102));
#104=FACE_OUTER_BOUND('',#103,.T.);
#105=CARTESIAN_POINT('',(0.0,6.999999999999995,-32.500000000000000));
#106=VERTEX_POINT('',#105);
#107=CARTESIAN_POINT('',(0.0,-5.970153E-015,-32.500000000000000));
#108=DIRECTION('',(-1.0,0.0,0.0));
#109=DIRECTION('',(0.0,1.0,0.0));
#110=AXIS2_PLACEMENT_3D('',#107,#108,#109);
#111=CIRCLE('',#110,7.000000000000001);
#112=EDGE_CURVE('',#106,#106,#111,.T.);
#113=ORIENTED_EDGE('',*,*,#112,.F.);
#114=EDGE_LOOP('',(#113));
#115=FACE_BOUND('',#114,.T.);
#116=ADVANCED_FACE('',(#104,#115),#93,.F.);
#117=CARTESIAN_POINT('',(0.0,-39.500000000000000,3.122849E-015));
#118=CARTESIAN_POINT('',(-13.999999999999986,-39.500000000000000,3.122849E-015));
#119=CARTESIAN_POINT('',(0.0,-39.500000000000000,-6.999999999999996));
#120=CARTESIAN_POINT('',(-13.999999999999986,-39.500000000000000,-6.999999999999996));
#121=CARTESIAN_POINT('',(0.0,-32.500000000000000,-6.999999999999996));
#122=CARTESIAN_POINT('',(-13.999999999999986,-32.500000000000000,-6.999999999999996));
#123=CARTESIAN_POINT('',(0.0,-25.499999999999996,-6.999999999999993));
#124=CARTESIAN_POINT('',(-13.999999999999986,-25.499999999999996,-6.999999999999993));
#125=CARTESIAN_POINT('',(0.0,-25.500000000000000,4.837355E-015));
#126=CARTESIAN_POINT('',(-13.999999999999986,-25.500000000000000,4.837355E-015));
#127=CARTESIAN_POINT('',(0.0,-25.499999999999996,7.000000000000002));
#128=CARTESIAN_POINT('',(-13.999999999999986,-25.499999999999996,7.000000000000002));
#129=CARTESIAN_POINT('',(0.0,-32.500000000000000,7.000000000000004));
#130=CARTESIAN_POINT('',(-13.999999999999986,-32.500000000000000,7.000000000000004));
#131=CARTESIAN_POINT('',(0.0,-39.500000000000000,7.000000000000001));
#132=CARTESIAN_POINT('',(-13.999999999999986,-39.500000000000000,7.000000000000001));
#133=CARTESIAN_POINT('',(0.0,-39.500000000000000,3.122849E-015));
#134=CARTESIAN_POINT('',(-13.999999999999986,-39.500000000000000,3.122849E-015));
#142=(BOUNDED_SURFACE()B_SPLINE_SURFACE(1,2,((#117,#119,#121,#123,#125,#127,#129,#131,#133),(#118,#120,#122,#124,#126,#128,#130,#132,#134)),.UNSPECIFIED.,.F.,.T.,.U.)B_SPLINE_SURFACE_WITH_KNOTS((2,2),(3,2,2,2,3),(-19.296822197936514,-17.296822197936514),(0.0,10.995574287564278,21.991148575128555,32.986722862692829,43.982297150257111),.UNSPECIFIED.)GEOMETRIC_REPRESENTATION_ITEM()RATIONAL_B_SPLINE_SURFACE(((1.0,0.707106781186548,1.0,0.707106781186548,1.0,0.707106781186548,1.0,0.707106781186548,1.0),(1.0,0.707106781186548,1.0,0.707106781186548,1.0,0.707106781186548,1.0,0.707106781186548,1.0)))REPRESENTATION_ITEM('')SURFACE());
#143=CARTESIAN_POINT('',(-14.000000000000004,-39.500000000000000,3.122849E-015));
#144=VERTEX_POINT('',#143);
#145=CARTESIAN_POINT('',(-14.000000000000004,-32.500000000000000,3.980102E-015));
#146=DIRECTION('',(1.0,0.0,0.0));
#147=DIRECTION('',(0.0,1.0,0.0));
#148=AXIS2_PLACEMENT_3D('',#145,#146,#147);
#149=CIRCLE('',#148,7.000000000000001);
#150=EDGE_CURVE('',#144,#144,#149,.T.);
#151=ORIENTED_EDGE('',*,*,#150,.F.);
#152=EDGE_LOOP('',(#151));
#153=FACE_OUTER_BOUND('',#152,.T.);
#154=CARTESIAN_POINT('',(0.0,-25.500000000000000,3.980102E-015));
#155=VERTEX_POINT('',#154);
#156=CARTESIAN_POINT('',(0.0,-32.500000000000000,3.980102E-015));
#157=DIRECTION('',(-1.0,0.0,0.0));
#158=DIRECTION('',(0.0,1.0,0.0));
#159=AXIS2_PLACEMENT_3D('',#156,#157,#158);
#160=CIRCLE('',#159,7.000000000000001);
#161=EDGE_CURVE('',#155,#155,#160,.T.);
#162=ORIENTED_EDGE('',*,*,#161,.F.);
#163=EDGE_LOOP('',(#162));
#164=FACE_BOUND('',#163,.T.);
#165=ADVANCED_FACE('',(#153,#164),#142,.F.);
#166=CARTESIAN_POINT('',(0.0,-6.999999999999999,32.500000000000000));
#167=CARTESIAN_POINT('',(-13.999999999999986,-6.999999999999999,32.500000000000000));
#168=CARTESIAN_POINT('',(0.0,-6.999999999999997,25.499999999999996));
#169=CARTESIAN_POINT('',(-13.999999999999986,-6.999999999999997,25.499999999999996));
#170=CARTESIAN_POINT('',(0.0,1.990051E-015,25.500000000000000));
#171=CARTESIAN_POINT('',(-13.999999999999986,1.990051E-015,25.500000000000000));
#172=CARTESIAN_POINT('',(0.0,7.000000000000001,25.499999999999996));
#173=CARTESIAN_POINT('',(-13.999999999999986,7.000000000000001,25.499999999999996));
#174=CARTESIAN_POINT('',(0.0,7.000000000000003,32.500000000000000));
#175=CARTESIAN_POINT('',(-13.999999999999986,7.000000000000003,32.500000000000000));
#176=CARTESIAN_POINT('',(0.0,7.000000000000001,39.500000000000000));
#177=CARTESIAN_POINT('',(-13.999999999999986,7.000000000000001,39.500000000000000));
#178=CARTESIAN_POINT('',(0.0,1.990051E-015,39.500000000000000));
#179=CARTESIAN_POINT('',(-13.999999999999986,1.990051E-015,39.500000000000000));
#180=CARTESIAN_POINT('',(0.0,-6.999999999999997,39.500000000000000));
#181=CARTESIAN_POINT('',(-13.999999999999986,-6.999999999999997,39.500000000000000));
#182=CARTESIAN_POINT('',(0.0,-6.999999999999999,32.500000000000000));
#183=CARTESIAN_POINT('',(-13.999999999999986,-6.999999999999999,32.500000000000000));
#191=(BOUNDED_SURFACE()B_SPLINE_SURFACE(1,2,((#166,#168,#170,#172,#174,#176,#178,#180,#182),(#167,#169,#171,#173,#175,#177,#179,#181,#183)),.UNSPECIFIED.,.F.,.T.,.U.)B_SPLINE_SURFACE_WITH_KNOTS((2,2),(3,2,2,2,3),(-19.296822197936514,-17.296822197936514),(0.0,10.995574287564278,21.991148575128555,32.986722862692829,43.982297150257111),.UNSPECIFIED.)GEOMETRIC_REPRESENTATION_ITEM()RATIONAL_B_SPLINE_SURFACE(((1.0,0.707106781186548,1.0,0.707106781186548,1.0,0.707106781186548,1.0,0.707106781186548,1.0),(1.0,0.707106781186548,1.0,0.707106781186548,1.0,0.707106781186548,1.0,0.707106781186548,1.0)))REPRESENTATION_ITEM('')SURFACE());
#192=CARTESIAN_POINT('',(-14.000000000000004,-6.999999999999998,32.500000000000000));
#193=VERTEX_POINT('',#192);
#194=CARTESIAN_POINT('',(-14.000000000000004,1.990051E-015,32.500000000000000));
#195=DIRECTION('',(1.0,0.0,0.0));
#196=DIRECTION('',(0.0,1.0,0.0));
#197=AXIS2_PLACEMENT_3D('',#194,#195,#196);
#198=CIRCLE('',#197,7.000000000000001);
#199=EDGE_CURVE('',#193,#193,#198,.T.);
#200=ORIENTED_EDGE('',*,*,#199,.F.);
#201=EDGE_LOOP('',(#200));
#202=FACE_OUTER_BOUND('',#201,.T.);
#203=CARTESIAN_POINT('',(0.0,7.000000000000003,32.500000000000000));
#204=VERTEX_POINT('',#203);
#205=CARTESIAN_POINT('',(0.0,1.990051E-015,32.500000000000000));
#206=DIRECTION('',(-1.0,0.0,0.0));
#207=DIRECTION('',(0.0,1.0,0.0));
#208=AXIS2_PLACEMENT_3D('',#205,#206,#207);
#209=CIRCLE('',#208,7.000000000000001);
#210=EDGE_CURVE('',#204,#204,#209,.T.);
#211=ORIENTED_EDGE('',*,*,#210,.F.);
#212=EDGE_LOOP('',(#211));
#213=FACE_BOUND('',#212,.T.);
#214=ADVANCED_FACE('',(#202,#213),#191,.F.);
#215=CARTESIAN_POINT('',(0.0,25.500000000000000,-8.572528E-016));
#216=CARTESIAN_POINT('',(-13.999999999999986,25.500000000000000,-8.572528E-016));
#217=CARTESIAN_POINT('',(0.0,25.499999999999996,-6.999999999999999));
#218=CARTESIAN_POINT('',(-13.999999999999986,25.499999999999996,-6.999999999999999));
#219=CARTESIAN_POINT('',(0.0,32.500000000000000,-7.0));
#220=CARTESIAN_POINT('',(-13.999999999999986,32.500000000000000,-7.0));
#221=CARTESIAN_POINT('',(0.0,39.500000000000000,-6.999999999999997));
#222=CARTESIAN_POINT('',(-13.999999999999986,39.500000000000000,-6.999999999999997));
#223=CARTESIAN_POINT('',(0.0,39.500000000000000,8.572528E-016));
#224=CARTESIAN_POINT('',(-13.999999999999986,39.500000000000000,8.572528E-016));
#225=CARTESIAN_POINT('',(0.0,39.500000000000000,6.999999999999999));
#226=CARTESIAN_POINT('',(-13.999999999999986,39.500000000000000,6.999999999999999));
#227=CARTESIAN_POINT('',(0.0,32.500000000000000,7.0));
#228=CARTESIAN_POINT('',(-13.999999999999986,32.500000000000000,7.0));
#229=CARTESIAN_POINT('',(0.0,25.499999999999996,6.999999999999997));
#230=CARTESIAN_POINT('',(-13.999999999999986,25.499999999999996,6.999999999999997));
#231=CARTESIAN_POINT('',(0.0,25.500000000000000,-8.572528E-016));
#232=CARTESIAN_POINT('',(-13.999999999999986,25.500000000000000,-8.572528E-016));
#240=(BOUNDED_SURFACE()B_SPLINE_SURFACE(1,2,((#215,#217,#219,#221,#223,#225,#227,#229,#231),(#216,#218,#220,#222,#224,#226,#228,#230,#232)),.UNSPECIFIED.,.F.,.T.,.U.)B_SPLINE_SURFACE_WITH_KNOTS((2,2),(3,2,2,2,3),(-19.296822197936514,-17.296822197936514),(0.0,10.995574287564278,21.991148575128555,32.986722862692829,43.982297150257111),.UNSPECIFIED.)GEOMETRIC_REPRESENTATION_ITEM()RATIONAL_B_SPLINE_SURFACE(((1.0,0.707106781186548,1.0,0.707106781186548,1.0,0.707106781186548,1.0,0.707106781186548,1.0),(1.0,0.707106781186548,1.0,0.707106781186548,1.0,0.707106781186548,1.0,0.707106781186548,1.0)))REPRESENTATION_ITEM('')SURFACE());
#241=CARTESIAN_POINT('',(-14.000000000000004,25.500000000000000,-8.572528E-016));
#242=VERTEX_POINT('',#241);
#243=CARTESIAN_POINT('',(-14.000000000000004,32.500000000000000,0.0));
#244=DIRECTION('',(1.0,0.0,0.0));
#245=DIRECTION('',(0.0,1.0,0.0));
#246=AXIS2_PLACEMENT_3D('',#243,#244,#245);
#247=CIRCLE('',#246,7.000000000000001);
#248=EDGE_CURVE('',#242,#242,#247,.T.);
#249=ORIENTED_EDGE('',*,*,#248,.F.);
#250=EDGE_LOOP('',(#249));
#251=FACE_OUTER_BOUND('',#250,.T.);
#252=CARTESIAN_POINT('',(0.0,39.500000000000000,0.0));
#253=VERTEX_POINT('',#252);
#254=CARTESIAN_POINT('',(0.0,32.500000000000000,0.0));
#255=DIRECTION('',(-1.0,0.0,0.0));
#256=DIRECTION('',(0.0,1.0,0.0));
#257=AXIS2_PLACEMENT_3D('',#254,#255,#256);
#258=CIRCLE('',#257,7.000000000000001);
#259=EDGE_CURVE('',#253,#253,#258,.T.);
#260=ORIENTED_EDGE('',*,*,#259,.F.);
#261=EDGE_LOOP('',(#260));
#262=FACE_BOUND('',#261,.T.);
#263=ADVANCED_FACE('',(#251,#262),#240,.F.);
#264=CARTESIAN_POINT('',(-6.999999999999997,0.0,0.0));
#265=DIRECTION('',(-1.0,0.0,0.0));
#266=DIRECTION('',(0.0,0.0,1.0));
#267=AXIS2_PLACEMENT_3D('',#264,#265,#266);
#268=CYLINDRICAL_SURFACE('',#267,47.500000000000000);
#269=CARTESIAN_POINT('',(-13.999999999999996,0.0,47.500000000000000));
#270=VERTEX_POINT('',#269);
#271=CARTESIAN_POINT('',(-13.999999999999996,0.0,0.0));
#272=DIRECTION('',(-1.0,0.0,0.0));
#273=DIRECTION('',(0.0,0.0,1.0));
#274=AXIS2_PLACEMENT_3D('',#271,#272,#273);
#275=CIRCLE('',#274,47.500000000000000);
#276=EDGE_CURVE('',#270,#270,#275,.T.);
#277=ORIENTED_EDGE('',*,*,#276,.F.);
#278=EDGE_LOOP('',(#277));
#279=FACE_OUTER_BOUND('',#278,.T.);
#280=CARTESIAN_POINT('',(2.220446E-015,0.0,47.500000000000000));
#281=VERTEX_POINT('',#280);
#282=CARTESIAN_POINT('',(2.220446E-015,0.0,0.0));
#283=DIRECTION('',(-1.0,0.0,0.0));
#284=DIRECTION('',(0.0,0.0,1.0));
#285=AXIS2_PLACEMENT_3D('',#282,#283,#284);
#286=CIRCLE('',#285,47.500000000000000);
#287=EDGE_CURVE('',#281,#281,#286,.T.);
#288=ORIENTED_EDGE('',*,*,#287,.T.);
#289=EDGE_LOOP('',(#288));
#290=FACE_BOUND('',#289,.T.);
#291=ADVANCED_FACE('',(#279,#290),#268,.T.);
#292=CARTESIAN_POINT('',(-14.0,0.0,30.750000000000000));
#293=DIRECTION('',(-1.0,0.0,0.0));
#294=DIRECTION('',(0.0,0.0,1.0));
#295=AXIS2_PLACEMENT_3D('',#292,#293,#294);
#296=PLANE('',#295);
#297=ORIENTED_EDGE('',*,*,#276,.T.);
#298=EDGE_LOOP('',(#297));
#299=FACE_OUTER_BOUND('',#298,.T.);
#300=ORIENTED_EDGE('',*,*,#101,.T.);
#301=EDGE_LOOP('',(#300));
#302=FACE_BOUND('',#301,.T.);
#303=ORIENTED_EDGE('',*,*,#150,.T.);
#304=EDGE_LOOP('',(#303));
#305=FACE_BOUND('',#304,.T.);
#306=ORIENTED_EDGE('',*,*,#199,.T.);
#307=EDGE_LOOP('',(#306));
#308=FACE_BOUND('',#307,.T.);
#309=ORIENTED_EDGE('',*,*,#248,.T.);
#310=EDGE_LOOP('',(#309));
#311=FACE_BOUND('',#310,.T.);
#312=CARTESIAN_POINT('',(-14.000000000000002,0.0,14.000000000000004));
#313=VERTEX_POINT('',#312);
#314=CARTESIAN_POINT('',(-14.000000000000002,0.0,0.0));
#315=DIRECTION('',(-1.0,0.0,0.0));
#316=DIRECTION('',(0.0,0.0,1.0));
#317=AXIS2_PLACEMENT_3D('',#314,#315,#316);
#318=CIRCLE('',#317,14.000000000000004);
#319=EDGE_CURVE('',#313,#313,#318,.T.);
#320=ORIENTED_EDGE('',*,*,#319,.F.);
#321=EDGE_LOOP('',(#320));
#322=FACE_BOUND('',#321,.T.);
#323=ADVANCED_FACE('',(#299,#302,#305,#308,#311,#322),#296,.T.);
#324=CARTESIAN_POINT('',(-12.500000000000000,0.0,0.0));
#325=DIRECTION('',(-1.0,0.0,0.0));
#326=DIRECTION('',(0.0,0.0,1.0));
#327=AXIS2_PLACEMENT_3D('',#324,#325,#326);
#328=CONICAL_SURFACE('',#327,12.500000000000004,45.000000000000007);
#329=CARTESIAN_POINT('',(-11.0,0.0,11.000000000000004));
#330=VERTEX_POINT('',#329);
#331=CARTESIAN_POINT('',(-11.0,0.0,0.0));
#332=DIRECTION('',(-1.0,0.0,0.0));
#333=DIRECTION('',(0.0,0.0,1.0));
#334=AXIS2_PLACEMENT_3D('',#331,#332,#333);
#335=CIRCLE('',#334,11.000000000000004);
#336=EDGE_CURVE('',#330,#330,#335,.T.);
#337=ORIENTED_EDGE('',*,*,#336,.F.);
#338=EDGE_LOOP('',(#337));
#339=FACE_OUTER_BOUND('',#338,.T.);
#340=ORIENTED_EDGE('',*,*,#319,.T.);
#341=EDGE_LOOP('',(#340));
#342=FACE_BOUND('',#341,.T.);
#343=ADVANCED_FACE('',(#339,#342),#328,.F.);
#344=CARTESIAN_POINT('',(-5.500000000000000,0.0,0.0));
#345=DIRECTION('',(-1.0,0.0,0.0));
#346=DIRECTION('',(0.0,0.0,1.0));
#347=AXIS2_PLACEMENT_3D('',#344,#345,#346);
#348=CYLINDRICAL_SURFACE('',#347,11.0);
#349=CARTESIAN_POINT('',(0.0,0.0,10.999999999999998));
#350=VERTEX_POINT('',#349);
#351=CARTESIAN_POINT('',(0.0,0.0,0.0));
#352=DIRECTION('',(-1.0,0.0,0.0));
#353=DIRECTION('',(0.0,0.0,1.0));
#354=AXIS2_PLACEMENT_3D('',#351,#352,#353);
#355=CIRCLE('',#354,10.999999999999998);
#356=EDGE_CURVE('',#350,#350,#355,.T.);
#357=ORIENTED_EDGE('',*,*,#356,.F.);
#358=EDGE_LOOP('',(#357));
#359=FACE_OUTER_BOUND('',#358,.T.);
#360=ORIENTED_EDGE('',*,*,#336,.T.);
#361=EDGE_LOOP('',(#360));
#362=FACE_BOUND('',#361,.T.);
#363=ADVANCED_FACE('',(#359,#362),#348,.F.);
#364=CARTESIAN_POINT('',(1.110223E-015,0.0,29.250000000000000));
#365=DIRECTION('',(1.0,0.0,0.0));
#366=DIRECTION('',(0.0,0.0,-1.0));
#367=AXIS2_PLACEMENT_3D('',#364,#365,#366);
#368=PLANE('',#367);
#369=ORIENTED_EDGE('',*,*,#287,.F.);
#370=EDGE_LOOP('',(#369));
#371=FACE_OUTER_BOUND('',#370,.T.);
#372=ORIENTED_EDGE('',*,*,#112,.T.);
#373=EDGE_LOOP('',(#372));
#374=FACE_BOUND('',#373,.T.);
#375=ORIENTED_EDGE('',*,*,#161,.T.);
#376=EDGE_LOOP('',(#375));
#377=FACE_BOUND('',#376,.T.);
#378=ORIENTED_EDGE('',*,*,#210,.T.);
#379=EDGE_LOOP('',(#378));
#380=FACE_BOUND('',#379,.T.);
#381=ORIENTED_EDGE('',*,*,#259,.T.);
#382=EDGE_LOOP('',(#381));
#383=FACE_BOUND('',#382,.T.);
#384=ORIENTED_EDGE('',*,*,#356,.T.);
#385=EDGE_LOOP('',(#384));
#386=FACE_BOUND('',#385,.T.);
#387=ADVANCED_FACE('',(#371,#374,#377,#380,#383,#386),#368,.T.);
#388=CLOSED_SHELL('',(#116,#165,#214,#263,#291,#323,#343,#363,#387));
#389=MANIFOLD_SOLID_BREP('Volumenk\S\vrper1',#388);
#390=COLOUR_RGB('Metall-AL-6061 (maschin.)',0.941175997257233,0.941175997257233,0.941175997257233);
#391=FILL_AREA_STYLE_COLOUR('Metall-AL-6061 (maschin.)',#390);
#392=FILL_AREA_STYLE('Metall-AL-6061 (maschin.)',(#391));
#393=SURFACE_STYLE_FILL_AREA(#392);
#394=SURFACE_SIDE_STYLE('Metall-AL-6061 (maschin.)',(#393));
#395=SURFACE_STYLE_USAGE(.BOTH.,#394);
#396=PRESENTATION_STYLE_ASSIGNMENT((#395));
#397=STYLED_ITEM('',(#396),#389);
#398=MECHANICAL_DESIGN_GEOMETRIC_PRESENTATION_REPRESENTATION('',(#397),#36);
#399=ADVANCED_BREP_SHAPE_REPRESENTATION('ABSR',(#389),#36);
#400=SHAPE_REPRESENTATION_RELATIONSHIP('SRR','None',#399,#41);
ENDSEC;
END-ISO-10303-21;
