ISO-10303-21;
HEADER;
/* Generated by software containing ST-Developer
 * from STEP Tools, Inc. (www.steptools.com) 
 */

FILE_DESCRIPTION(
/* description */ ('Muffe G3 DN 15/ G1/2'),
/* implementation_level */ '2;1');

FILE_NAME(
/* name */ 
'C:\\WSVault\\Daten\\Konstruktion\\1\\10\\10125 Muffe G3\\Anschwei\X\DF
muffe G3  1-2  ZOLL.stp',
/* time_stamp */ '2019-05-14T11:02:34+02:00',
/* author */ ('neum'),
/* organization */ (''),
/* preprocessor_version */ 'ST-DEVELOPER v17',
/* originating_system */ 'Autodesk Inventor 2018',
/* authorisation */ '');

FILE_SCHEMA (('AUTOMOTIVE_DESIGN { 1 0 10303 214 3 1 1 }'));
ENDSEC;

DATA;
#10=MECHANICAL_DESIGN_GEOMETRIC_PRESENTATION_REPRESENTATION('',(#212,#213,
#214,#215,#216,#217,#218,#219,#220,#221,#222,#223),#450);
#11=SHAPE_REPRESENTATION_RELATIONSHIP('SRR','None',#457,#12);
#12=ADVANCED_BREP_SHAPE_REPRESENTATION('',(#13),#449);
#13=MANIFOLD_SOLID_BREP('Volumenk\X\F6rper1',#235);
#14=TOROIDAL_SURFACE('',#264,10.,0.5);
#15=TOROIDAL_SURFACE('',#271,12.,1.5);
#16=TOROIDAL_SURFACE('',#286,9.3155,1.5);
#17=LINE('',#395,#21);
#18=LINE('',#420,#22);
#19=LINE('',#428,#23);
#20=LINE('',#446,#24);
#21=VECTOR('',#314,9.5);
#22=VECTOR('',#345,13.5);
#23=VECTOR('',#354,9.3155);
#24=VECTOR('',#377,7.5);
#25=CYLINDRICAL_SURFACE('',#260,9.5);
#26=CYLINDRICAL_SURFACE('',#276,13.5);
#27=CYLINDRICAL_SURFACE('',#282,9.3155);
#28=CYLINDRICAL_SURFACE('',#293,7.5);
#29=FACE_BOUND('',#45,.T.);
#30=FACE_BOUND('',#49,.T.);
#31=FACE_BOUND('',#53,.T.);
#32=FACE_BOUND('',#57,.T.);
#33=FACE_OUTER_BOUND('',#44,.T.);
#34=FACE_OUTER_BOUND('',#46,.T.);
#35=FACE_OUTER_BOUND('',#47,.T.);
#36=FACE_OUTER_BOUND('',#48,.T.);
#37=FACE_OUTER_BOUND('',#50,.T.);
#38=FACE_OUTER_BOUND('',#51,.T.);
#39=FACE_OUTER_BOUND('',#52,.T.);
#40=FACE_OUTER_BOUND('',#54,.T.);
#41=FACE_OUTER_BOUND('',#55,.T.);
#42=FACE_OUTER_BOUND('',#56,.T.);
#43=FACE_OUTER_BOUND('',#58,.T.);
#44=EDGE_LOOP('',(#144,#145));
#45=EDGE_LOOP('',(#146,#147));
#46=EDGE_LOOP('',(#148,#149,#150,#151,#152,#153,#154));
#47=EDGE_LOOP('',(#155,#156,#157,#158,#159,#160,#161));
#48=EDGE_LOOP('',(#162,#163));
#49=EDGE_LOOP('',(#164,#165));
#50=EDGE_LOOP('',(#166,#167,#168,#169,#170,#171,#172));
#51=EDGE_LOOP('',(#173,#174,#175,#176,#177,#178,#179));
#52=EDGE_LOOP('',(#180,#181));
#53=EDGE_LOOP('',(#182,#183));
#54=EDGE_LOOP('',(#184,#185,#186,#187,#188,#189,#190));
#55=EDGE_LOOP('',(#191,#192,#193,#194,#195,#196,#197));
#56=EDGE_LOOP('',(#198,#199));
#57=EDGE_LOOP('',(#200,#201));
#58=EDGE_LOOP('',(#202,#203,#204,#205,#206,#207));
#59=CIRCLE('',#256,9.5);
#60=CIRCLE('',#257,9.5);
#61=CIRCLE('',#258,7.5);
#62=CIRCLE('',#259,7.5);
#63=CIRCLE('',#261,9.5);
#64=CIRCLE('',#262,9.5);
#65=CIRCLE('',#263,9.5);
#66=CIRCLE('',#265,0.5);
#67=CIRCLE('',#266,10.);
#68=CIRCLE('',#267,10.);
#69=CIRCLE('',#269,12.);
#70=CIRCLE('',#270,12.);
#71=CIRCLE('',#272,13.5);
#72=CIRCLE('',#273,13.5);
#73=CIRCLE('',#274,1.5);
#74=CIRCLE('',#275,13.5);
#75=CIRCLE('',#277,13.5);
#76=CIRCLE('',#278,13.5);
#77=CIRCLE('',#280,9.3155);
#78=CIRCLE('',#281,9.3155);
#79=CIRCLE('',#283,9.3155);
#80=CIRCLE('',#284,9.3155);
#81=CIRCLE('',#285,9.3155);
#82=CIRCLE('',#287,1.5);
#83=CIRCLE('',#288,9.3155);
#84=CIRCLE('',#289,9.3155);
#85=CIRCLE('',#291,7.5);
#86=CIRCLE('',#292,7.5);
#87=VERTEX_POINT('',#380);
#88=VERTEX_POINT('',#381);
#89=VERTEX_POINT('',#384);
#90=VERTEX_POINT('',#385);
#91=VERTEX_POINT('',#389);
#92=VERTEX_POINT('',#390);
#93=VERTEX_POINT('',#392);
#94=VERTEX_POINT('',#397);
#95=VERTEX_POINT('',#399);
#96=VERTEX_POINT('',#403);
#97=VERTEX_POINT('',#404);
#98=VERTEX_POINT('',#408);
#99=VERTEX_POINT('',#409);
#100=VERTEX_POINT('',#411);
#101=VERTEX_POINT('',#416);
#102=VERTEX_POINT('',#417);
#103=VERTEX_POINT('',#422);
#104=VERTEX_POINT('',#423);
#105=VERTEX_POINT('',#427);
#106=VERTEX_POINT('',#429);
#107=VERTEX_POINT('',#431);
#108=VERTEX_POINT('',#435);
#109=VERTEX_POINT('',#437);
#110=VERTEX_POINT('',#441);
#111=VERTEX_POINT('',#442);
#112=EDGE_CURVE('',#87,#88,#59,.T.);
#113=EDGE_CURVE('',#88,#87,#60,.T.);
#114=EDGE_CURVE('',#89,#90,#61,.T.);
#115=EDGE_CURVE('',#90,#89,#62,.T.);
#116=EDGE_CURVE('',#91,#92,#63,.T.);
#117=EDGE_CURVE('',#93,#91,#64,.T.);
#118=EDGE_CURVE('',#92,#93,#65,.T.);
#119=EDGE_CURVE('',#92,#88,#17,.T.);
#120=EDGE_CURVE('',#93,#94,#66,.T.);
#121=EDGE_CURVE('',#95,#94,#67,.T.);
#122=EDGE_CURVE('',#94,#95,#68,.T.);
#123=EDGE_CURVE('',#96,#97,#69,.T.);
#124=EDGE_CURVE('',#97,#96,#70,.T.);
#125=EDGE_CURVE('',#98,#99,#71,.T.);
#126=EDGE_CURVE('',#100,#98,#72,.T.);
#127=EDGE_CURVE('',#100,#97,#73,.T.);
#128=EDGE_CURVE('',#99,#100,#74,.T.);
#129=EDGE_CURVE('',#101,#102,#75,.T.);
#130=EDGE_CURVE('',#102,#101,#76,.T.);
#131=EDGE_CURVE('',#102,#99,#18,.T.);
#132=EDGE_CURVE('',#103,#104,#77,.T.);
#133=EDGE_CURVE('',#104,#103,#78,.T.);
#134=EDGE_CURVE('',#104,#105,#19,.T.);
#135=EDGE_CURVE('',#106,#105,#79,.T.);
#136=EDGE_CURVE('',#107,#106,#80,.T.);
#137=EDGE_CURVE('',#105,#107,#81,.T.);
#138=EDGE_CURVE('',#107,#108,#82,.T.);
#139=EDGE_CURVE('',#109,#108,#83,.T.);
#140=EDGE_CURVE('',#108,#109,#84,.T.);
#141=EDGE_CURVE('',#110,#111,#85,.T.);
#142=EDGE_CURVE('',#111,#110,#86,.T.);
#143=EDGE_CURVE('',#111,#90,#20,.T.);
#144=ORIENTED_EDGE('',*,*,#112,.F.);
#145=ORIENTED_EDGE('',*,*,#113,.F.);
#146=ORIENTED_EDGE('',*,*,#114,.T.);
#147=ORIENTED_EDGE('',*,*,#115,.T.);
#148=ORIENTED_EDGE('',*,*,#116,.F.);
#149=ORIENTED_EDGE('',*,*,#117,.F.);
#150=ORIENTED_EDGE('',*,*,#118,.F.);
#151=ORIENTED_EDGE('',*,*,#119,.T.);
#152=ORIENTED_EDGE('',*,*,#113,.T.);
#153=ORIENTED_EDGE('',*,*,#112,.T.);
#154=ORIENTED_EDGE('',*,*,#119,.F.);
#155=ORIENTED_EDGE('',*,*,#116,.T.);
#156=ORIENTED_EDGE('',*,*,#118,.T.);
#157=ORIENTED_EDGE('',*,*,#120,.T.);
#158=ORIENTED_EDGE('',*,*,#121,.F.);
#159=ORIENTED_EDGE('',*,*,#122,.F.);
#160=ORIENTED_EDGE('',*,*,#120,.F.);
#161=ORIENTED_EDGE('',*,*,#117,.T.);
#162=ORIENTED_EDGE('',*,*,#123,.F.);
#163=ORIENTED_EDGE('',*,*,#124,.F.);
#164=ORIENTED_EDGE('',*,*,#121,.T.);
#165=ORIENTED_EDGE('',*,*,#122,.T.);
#166=ORIENTED_EDGE('',*,*,#125,.F.);
#167=ORIENTED_EDGE('',*,*,#126,.F.);
#168=ORIENTED_EDGE('',*,*,#127,.T.);
#169=ORIENTED_EDGE('',*,*,#124,.T.);
#170=ORIENTED_EDGE('',*,*,#123,.T.);
#171=ORIENTED_EDGE('',*,*,#127,.F.);
#172=ORIENTED_EDGE('',*,*,#128,.F.);
#173=ORIENTED_EDGE('',*,*,#129,.F.);
#174=ORIENTED_EDGE('',*,*,#130,.F.);
#175=ORIENTED_EDGE('',*,*,#131,.T.);
#176=ORIENTED_EDGE('',*,*,#128,.T.);
#177=ORIENTED_EDGE('',*,*,#126,.T.);
#178=ORIENTED_EDGE('',*,*,#125,.T.);
#179=ORIENTED_EDGE('',*,*,#131,.F.);
#180=ORIENTED_EDGE('',*,*,#129,.T.);
#181=ORIENTED_EDGE('',*,*,#130,.T.);
#182=ORIENTED_EDGE('',*,*,#132,.F.);
#183=ORIENTED_EDGE('',*,*,#133,.F.);
#184=ORIENTED_EDGE('',*,*,#132,.T.);
#185=ORIENTED_EDGE('',*,*,#134,.T.);
#186=ORIENTED_EDGE('',*,*,#135,.F.);
#187=ORIENTED_EDGE('',*,*,#136,.F.);
#188=ORIENTED_EDGE('',*,*,#137,.F.);
#189=ORIENTED_EDGE('',*,*,#134,.F.);
#190=ORIENTED_EDGE('',*,*,#133,.T.);
#191=ORIENTED_EDGE('',*,*,#135,.T.);
#192=ORIENTED_EDGE('',*,*,#137,.T.);
#193=ORIENTED_EDGE('',*,*,#138,.T.);
#194=ORIENTED_EDGE('',*,*,#139,.F.);
#195=ORIENTED_EDGE('',*,*,#140,.F.);
#196=ORIENTED_EDGE('',*,*,#138,.F.);
#197=ORIENTED_EDGE('',*,*,#136,.T.);
#198=ORIENTED_EDGE('',*,*,#139,.T.);
#199=ORIENTED_EDGE('',*,*,#140,.T.);
#200=ORIENTED_EDGE('',*,*,#141,.F.);
#201=ORIENTED_EDGE('',*,*,#142,.F.);
#202=ORIENTED_EDGE('',*,*,#141,.T.);
#203=ORIENTED_EDGE('',*,*,#143,.T.);
#204=ORIENTED_EDGE('',*,*,#114,.F.);
#205=ORIENTED_EDGE('',*,*,#115,.F.);
#206=ORIENTED_EDGE('',*,*,#143,.F.);
#207=ORIENTED_EDGE('',*,*,#142,.T.);
#208=PLANE('',#255);
#209=PLANE('',#268);
#210=PLANE('',#279);
#211=PLANE('',#290);
#212=STYLED_ITEM('',(#466),#224);
#213=STYLED_ITEM('',(#466),#225);
#214=STYLED_ITEM('',(#466),#226);
#215=STYLED_ITEM('',(#466),#227);
#216=STYLED_ITEM('',(#466),#228);
#217=STYLED_ITEM('',(#466),#229);
#218=STYLED_ITEM('',(#466),#230);
#219=STYLED_ITEM('',(#466),#231);
#220=STYLED_ITEM('',(#466),#232);
#221=STYLED_ITEM('',(#466),#233);
#222=STYLED_ITEM('',(#466),#234);
#223=STYLED_ITEM('',(#466),#13);
#224=ADVANCED_FACE('',(#33,#29),#208,.T.);
#225=ADVANCED_FACE('',(#34),#25,.T.);
#226=ADVANCED_FACE('',(#35),#14,.F.);
#227=ADVANCED_FACE('',(#36,#30),#209,.T.);
#228=ADVANCED_FACE('',(#37),#15,.T.);
#229=ADVANCED_FACE('',(#38),#26,.T.);
#230=ADVANCED_FACE('',(#39,#31),#210,.T.);
#231=ADVANCED_FACE('',(#40),#27,.F.);
#232=ADVANCED_FACE('',(#41),#16,.F.);
#233=ADVANCED_FACE('',(#42,#32),#211,.T.);
#234=ADVANCED_FACE('',(#43),#28,.F.);
#235=CLOSED_SHELL('',(#224,#225,#226,#227,#228,#229,#230,#231,#232,#233,
#234));
#236=DERIVED_UNIT_ELEMENT(#238,1.);
#237=DERIVED_UNIT_ELEMENT(#452,3.);
#238=(
MASS_UNIT()
NAMED_UNIT(*)
SI_UNIT($,.GRAM.)
);
#239=DERIVED_UNIT((#236,#237));
#240=MEASURE_REPRESENTATION_ITEM('density measure',
POSITIVE_RATIO_MEASURE(7.86),#239);
#241=PROPERTY_DEFINITION_REPRESENTATION(#246,#243);
#242=PROPERTY_DEFINITION_REPRESENTATION(#247,#244);
#243=REPRESENTATION('material name',(#245),#449);
#244=REPRESENTATION('density',(#240),#449);
#245=DESCRIPTIVE_REPRESENTATION_ITEM('1.4301','1.4301');
#246=PROPERTY_DEFINITION('material property','material name',#459);
#247=PROPERTY_DEFINITION('material property','density of part',#459);
#248=DATE_TIME_ROLE('creation_date');
#249=APPLIED_DATE_AND_TIME_ASSIGNMENT(#250,#248,(#459));
#250=DATE_AND_TIME(#251,#252);
#251=CALENDAR_DATE(2013,5,9);
#252=LOCAL_TIME(23,0,0.,#253);
#253=COORDINATED_UNIVERSAL_TIME_OFFSET(0,0,.BEHIND.);
#254=AXIS2_PLACEMENT_3D('placement',#378,#294,#295);
#255=AXIS2_PLACEMENT_3D('',#379,#296,#297);
#256=AXIS2_PLACEMENT_3D('',#382,#298,#299);
#257=AXIS2_PLACEMENT_3D('',#383,#300,#301);
#258=AXIS2_PLACEMENT_3D('',#386,#302,#303);
#259=AXIS2_PLACEMENT_3D('',#387,#304,#305);
#260=AXIS2_PLACEMENT_3D('',#388,#306,#307);
#261=AXIS2_PLACEMENT_3D('',#391,#308,#309);
#262=AXIS2_PLACEMENT_3D('',#393,#310,#311);
#263=AXIS2_PLACEMENT_3D('',#394,#312,#313);
#264=AXIS2_PLACEMENT_3D('',#396,#315,#316);
#265=AXIS2_PLACEMENT_3D('',#398,#317,#318);
#266=AXIS2_PLACEMENT_3D('',#400,#319,#320);
#267=AXIS2_PLACEMENT_3D('',#401,#321,#322);
#268=AXIS2_PLACEMENT_3D('',#402,#323,#324);
#269=AXIS2_PLACEMENT_3D('',#405,#325,#326);
#270=AXIS2_PLACEMENT_3D('',#406,#327,#328);
#271=AXIS2_PLACEMENT_3D('',#407,#329,#330);
#272=AXIS2_PLACEMENT_3D('',#410,#331,#332);
#273=AXIS2_PLACEMENT_3D('',#412,#333,#334);
#274=AXIS2_PLACEMENT_3D('',#413,#335,#336);
#275=AXIS2_PLACEMENT_3D('',#414,#337,#338);
#276=AXIS2_PLACEMENT_3D('',#415,#339,#340);
#277=AXIS2_PLACEMENT_3D('',#418,#341,#342);
#278=AXIS2_PLACEMENT_3D('',#419,#343,#344);
#279=AXIS2_PLACEMENT_3D('',#421,#346,#347);
#280=AXIS2_PLACEMENT_3D('',#424,#348,#349);
#281=AXIS2_PLACEMENT_3D('',#425,#350,#351);
#282=AXIS2_PLACEMENT_3D('',#426,#352,#353);
#283=AXIS2_PLACEMENT_3D('',#430,#355,#356);
#284=AXIS2_PLACEMENT_3D('',#432,#357,#358);
#285=AXIS2_PLACEMENT_3D('',#433,#359,#360);
#286=AXIS2_PLACEMENT_3D('',#434,#361,#362);
#287=AXIS2_PLACEMENT_3D('',#436,#363,#364);
#288=AXIS2_PLACEMENT_3D('',#438,#365,#366);
#289=AXIS2_PLACEMENT_3D('',#439,#367,#368);
#290=AXIS2_PLACEMENT_3D('',#440,#369,#370);
#291=AXIS2_PLACEMENT_3D('',#443,#371,#372);
#292=AXIS2_PLACEMENT_3D('',#444,#373,#374);
#293=AXIS2_PLACEMENT_3D('',#445,#375,#376);
#294=DIRECTION('axis',(0.,0.,1.));
#295=DIRECTION('refdir',(1.,0.,0.));
#296=DIRECTION('center_axis',(0.,-1.,0.));
#297=DIRECTION('ref_axis',(0.,0.,-1.));
#298=DIRECTION('center_axis',(0.,1.,0.));
#299=DIRECTION('ref_axis',(-1.,0.,0.));
#300=DIRECTION('center_axis',(0.,1.,0.));
#301=DIRECTION('ref_axis',(-1.,0.,0.));
#302=DIRECTION('center_axis',(0.,1.,0.));
#303=DIRECTION('ref_axis',(-1.,0.,0.));
#304=DIRECTION('center_axis',(0.,1.,0.));
#305=DIRECTION('ref_axis',(-1.,0.,0.));
#306=DIRECTION('center_axis',(0.,1.,0.));
#307=DIRECTION('ref_axis',(-1.,0.,0.));
#308=DIRECTION('center_axis',(0.,1.,0.));
#309=DIRECTION('ref_axis',(-1.,0.,0.));
#310=DIRECTION('center_axis',(0.,1.,0.));
#311=DIRECTION('ref_axis',(-1.,0.,0.));
#312=DIRECTION('center_axis',(0.,1.,0.));
#313=DIRECTION('ref_axis',(-1.,0.,0.));
#314=DIRECTION('',(0.,-1.,0.));
#315=DIRECTION('center_axis',(0.,1.,0.));
#316=DIRECTION('ref_axis',(0.,0.,1.));
#317=DIRECTION('center_axis',(-1.,0.,1.22464679914735E-16));
#318=DIRECTION('ref_axis',(-1.22464679914735E-16,0.,-1.));
#319=DIRECTION('center_axis',(0.,1.,0.));
#320=DIRECTION('ref_axis',(-1.,0.,0.));
#321=DIRECTION('center_axis',(0.,1.,0.));
#322=DIRECTION('ref_axis',(-1.,0.,0.));
#323=DIRECTION('center_axis',(0.,-1.,0.));
#324=DIRECTION('ref_axis',(0.,0.,-1.));
#325=DIRECTION('center_axis',(0.,1.,0.));
#326=DIRECTION('ref_axis',(-1.,0.,0.));
#327=DIRECTION('center_axis',(0.,1.,0.));
#328=DIRECTION('ref_axis',(-1.,0.,0.));
#329=DIRECTION('center_axis',(0.,1.,0.));
#330=DIRECTION('ref_axis',(0.,0.,1.));
#331=DIRECTION('center_axis',(0.,1.,0.));
#332=DIRECTION('ref_axis',(-1.,0.,0.));
#333=DIRECTION('center_axis',(0.,1.,0.));
#334=DIRECTION('ref_axis',(-1.,0.,0.));
#335=DIRECTION('center_axis',(-1.,0.,1.22464679914735E-16));
#336=DIRECTION('ref_axis',(-1.22464679914735E-16,0.,-1.));
#337=DIRECTION('center_axis',(0.,1.,0.));
#338=DIRECTION('ref_axis',(-1.,0.,0.));
#339=DIRECTION('center_axis',(0.,1.,0.));
#340=DIRECTION('ref_axis',(-1.,0.,0.));
#341=DIRECTION('center_axis',(0.,1.,0.));
#342=DIRECTION('ref_axis',(-1.,0.,0.));
#343=DIRECTION('center_axis',(0.,1.,0.));
#344=DIRECTION('ref_axis',(-1.,0.,0.));
#345=DIRECTION('',(0.,-1.,0.));
#346=DIRECTION('center_axis',(0.,1.,0.));
#347=DIRECTION('ref_axis',(0.,0.,1.));
#348=DIRECTION('center_axis',(0.,1.,0.));
#349=DIRECTION('ref_axis',(-1.,0.,0.));
#350=DIRECTION('center_axis',(0.,1.,0.));
#351=DIRECTION('ref_axis',(-1.,0.,0.));
#352=DIRECTION('center_axis',(0.,1.,0.));
#353=DIRECTION('ref_axis',(-1.,0.,0.));
#354=DIRECTION('',(0.,-1.,0.));
#355=DIRECTION('center_axis',(0.,1.,0.));
#356=DIRECTION('ref_axis',(-1.,0.,0.));
#357=DIRECTION('center_axis',(0.,1.,0.));
#358=DIRECTION('ref_axis',(-1.,0.,0.));
#359=DIRECTION('center_axis',(0.,1.,0.));
#360=DIRECTION('ref_axis',(-1.,0.,0.));
#361=DIRECTION('center_axis',(0.,1.,0.));
#362=DIRECTION('ref_axis',(0.,0.,1.));
#363=DIRECTION('center_axis',(-1.,0.,1.22464679914735E-16));
#364=DIRECTION('ref_axis',(-1.22464679914735E-16,0.,-1.));
#365=DIRECTION('center_axis',(0.,1.,0.));
#366=DIRECTION('ref_axis',(-1.,0.,0.));
#367=DIRECTION('center_axis',(0.,1.,0.));
#368=DIRECTION('ref_axis',(-1.,0.,0.));
#369=DIRECTION('center_axis',(0.,1.,0.));
#370=DIRECTION('ref_axis',(0.,0.,1.));
#371=DIRECTION('center_axis',(0.,1.,0.));
#372=DIRECTION('ref_axis',(-1.,0.,0.));
#373=DIRECTION('center_axis',(0.,1.,0.));
#374=DIRECTION('ref_axis',(-1.,0.,0.));
#375=DIRECTION('center_axis',(0.,1.,0.));
#376=DIRECTION('ref_axis',(-1.,0.,0.));
#377=DIRECTION('',(0.,-1.,0.));
#378=CARTESIAN_POINT('',(0.,0.,0.));
#379=CARTESIAN_POINT('Origin',(-8.5,3.08148791101976E-33,0.));
#380=CARTESIAN_POINT('',(-9.5,6.16297582203952E-33,0.));
#381=CARTESIAN_POINT('',(9.5,0.,-1.16341445918999E-15));
#382=CARTESIAN_POINT('Origin',(0.,0.,0.));
#383=CARTESIAN_POINT('Origin',(0.,0.,0.));
#384=CARTESIAN_POINT('',(-7.5,0.,0.));
#385=CARTESIAN_POINT('',(7.5,0.,-9.18485099360515E-16));
#386=CARTESIAN_POINT('Origin',(0.,0.,0.));
#387=CARTESIAN_POINT('Origin',(0.,0.,0.));
#388=CARTESIAN_POINT('Origin',(0.,1.25,0.));
#389=CARTESIAN_POINT('',(-9.5,2.5,0.));
#390=CARTESIAN_POINT('',(9.5,2.5,-1.16341445918999E-15));
#391=CARTESIAN_POINT('Origin',(0.,2.5,0.));
#392=CARTESIAN_POINT('',(-1.16341445918999E-15,2.5,-9.5));
#393=CARTESIAN_POINT('Origin',(0.,2.5,0.));
#394=CARTESIAN_POINT('Origin',(0.,2.5,0.));
#395=CARTESIAN_POINT('',(9.5,1.25,-1.16341445918999E-15));
#396=CARTESIAN_POINT('Origin',(0.,2.5,0.));
#397=CARTESIAN_POINT('',(-1.22464679914735E-15,3.,-10.));
#398=CARTESIAN_POINT('Origin',(-1.22464679914735E-15,2.5,-10.));
#399=CARTESIAN_POINT('',(-10.,3.,0.));
#400=CARTESIAN_POINT('Origin',(0.,3.,0.));
#401=CARTESIAN_POINT('Origin',(0.,3.,0.));
#402=CARTESIAN_POINT('Origin',(-11.,3.,0.));
#403=CARTESIAN_POINT('',(-12.,3.,0.));
#404=CARTESIAN_POINT('',(-1.46957615897682E-15,3.,-12.));
#405=CARTESIAN_POINT('Origin',(0.,3.,0.));
#406=CARTESIAN_POINT('Origin',(0.,3.,0.));
#407=CARTESIAN_POINT('Origin',(0.,4.5,0.));
#408=CARTESIAN_POINT('',(-13.5,4.5,0.));
#409=CARTESIAN_POINT('',(13.5,4.5,-1.65327317884893E-15));
#410=CARTESIAN_POINT('Origin',(0.,4.5,0.));
#411=CARTESIAN_POINT('',(-1.65327317884893E-15,4.5,-13.5));
#412=CARTESIAN_POINT('Origin',(0.,4.5,0.));
#413=CARTESIAN_POINT('Origin',(-1.46957615897682E-15,4.5,-12.));
#414=CARTESIAN_POINT('Origin',(0.,4.5,0.));
#415=CARTESIAN_POINT('Origin',(0.,13.25,0.));
#416=CARTESIAN_POINT('',(-13.5,22.,0.));
#417=CARTESIAN_POINT('',(13.5,22.,-1.65327317884893E-15));
#418=CARTESIAN_POINT('Origin',(0.,22.,0.));
#419=CARTESIAN_POINT('Origin',(0.,22.,0.));
#420=CARTESIAN_POINT('',(13.5,13.25,-1.65327317884893E-15));
#421=CARTESIAN_POINT('Origin',(-11.40775,22.,0.));
#422=CARTESIAN_POINT('',(-9.3155,22.,0.));
#423=CARTESIAN_POINT('',(9.3155,22.,-1.14081972574572E-15));
#424=CARTESIAN_POINT('Origin',(0.,22.,0.));
#425=CARTESIAN_POINT('Origin',(0.,22.,0.));
#426=CARTESIAN_POINT('Origin',(0.,16.,0.));
#427=CARTESIAN_POINT('',(9.3155,10.,-1.14081972574572E-15));
#428=CARTESIAN_POINT('',(9.3155,16.,-1.14081972574572E-15));
#429=CARTESIAN_POINT('',(-9.3155,10.,0.));
#430=CARTESIAN_POINT('Origin',(0.,10.,0.));
#431=CARTESIAN_POINT('',(-1.14081972574572E-15,10.,-9.3155));
#432=CARTESIAN_POINT('Origin',(0.,10.,0.));
#433=CARTESIAN_POINT('Origin',(0.,10.,0.));
#434=CARTESIAN_POINT('Origin',(0.,8.5,0.));
#435=CARTESIAN_POINT('',(-1.14081972574572E-15,7.,-9.3155));
#436=CARTESIAN_POINT('Origin',(-1.14081972574572E-15,8.5,-9.3155));
#437=CARTESIAN_POINT('',(-9.3155,7.,0.));
#438=CARTESIAN_POINT('Origin',(0.,7.,0.));
#439=CARTESIAN_POINT('Origin',(0.,7.,0.));
#440=CARTESIAN_POINT('Origin',(-8.40775,7.,0.));
#441=CARTESIAN_POINT('',(-7.5,7.,0.));
#442=CARTESIAN_POINT('',(7.5,7.,-9.18485099360515E-16));
#443=CARTESIAN_POINT('Origin',(0.,7.,0.));
#444=CARTESIAN_POINT('Origin',(0.,7.,0.));
#445=CARTESIAN_POINT('Origin',(0.,3.5,0.));
#446=CARTESIAN_POINT('',(7.5,3.5,-9.18485099360515E-16));
#447=UNCERTAINTY_MEASURE_WITH_UNIT(LENGTH_MEASURE(0.01),#451,
'DISTANCE_ACCURACY_VALUE',
'Maximum model space distance between geometric entities at asserted c
onnectivities');
#448=UNCERTAINTY_MEASURE_WITH_UNIT(LENGTH_MEASURE(0.01),#451,
'DISTANCE_ACCURACY_VALUE',
'Maximum model space distance between geometric entities at asserted c
onnectivities');
#449=(
GEOMETRIC_REPRESENTATION_CONTEXT(3)
GLOBAL_UNCERTAINTY_ASSIGNED_CONTEXT((#447))
GLOBAL_UNIT_ASSIGNED_CONTEXT((#451,#454,#453))
REPRESENTATION_CONTEXT('','3D')
);
#450=(
GEOMETRIC_REPRESENTATION_CONTEXT(3)
GLOBAL_UNCERTAINTY_ASSIGNED_CONTEXT((#448))
GLOBAL_UNIT_ASSIGNED_CONTEXT((#451,#454,#453))
REPRESENTATION_CONTEXT('','3D')
);
#451=(
LENGTH_UNIT()
NAMED_UNIT(*)
SI_UNIT(.MILLI.,.METRE.)
);
#452=(
LENGTH_UNIT()
NAMED_UNIT(*)
SI_UNIT(.CENTI.,.METRE.)
);
#453=(
NAMED_UNIT(*)
SI_UNIT($,.STERADIAN.)
SOLID_ANGLE_UNIT()
);
#454=(
NAMED_UNIT(*)
PLANE_ANGLE_UNIT()
SI_UNIT($,.RADIAN.)
);
#455=SHAPE_DEFINITION_REPRESENTATION(#456,#457);
#456=PRODUCT_DEFINITION_SHAPE('',$,#459);
#457=SHAPE_REPRESENTATION('',(#254),#449);
#458=PRODUCT_DEFINITION_CONTEXT('part definition',#463,'design');
#459=PRODUCT_DEFINITION('1012500001210','1012500001210',#460,#458);
#460=PRODUCT_DEFINITION_FORMATION('',$,#465);
#461=PRODUCT_RELATED_PRODUCT_CATEGORY('1012500001210','1012500001210',(#465));
#462=APPLICATION_PROTOCOL_DEFINITION('international standard',
'automotive_design',2009,#463);
#463=APPLICATION_CONTEXT(
'Core Data for Automotive Mechanical Design Process');
#464=PRODUCT_CONTEXT('part definition',#463,'mechanical');
#465=PRODUCT('1012500001210','1012500001210','Muffe G3 DN 15/ G1/2',(#464));
#466=PRESENTATION_STYLE_ASSIGNMENT((#467));
#467=SURFACE_STYLE_USAGE(.BOTH.,#468);
#468=SURFACE_SIDE_STYLE('',(#469));
#469=SURFACE_STYLE_FILL_AREA(#470);
#470=FILL_AREA_STYLE('',(#471));
#471=FILL_AREA_STYLE_COLOUR('',#472);
#472=COLOUR_RGB('',0.505882352941176,0.505882352941176,0.505882352941176);
ENDSEC;
END-ISO-10303-21;
