ISO-10303-21;
HEADER;
/* Generated by software containing ST-Developer
 * from STEP Tools, Inc. (www.steptools.com) 
 */

FILE_DESCRIPTION(
/* description */ ('Anschw.-Nippel G2 1/2"'),
/* implementation_level */ '2;1');

FILE_NAME(
/* name */ 
'C:\\WSVault\\Daten\\Konstruktion\\1\\10\\10126\\Anschwei\X\DFnippel G
2 1_2 ZOLL.stp',
/* time_stamp */ '2017-05-23T08:19:23+02:00',
/* author */ ('neum'),
/* organization */ (''),
/* preprocessor_version */ 'ST-DEVELOPER v15.2',
/* originating_system */ 'Autodesk Inventor 2014',
/* authorisation */ '');

FILE_SCHEMA (('AUTOMOTIVE_DESIGN { 1 0 10303 214 3 1 1 }'));
ENDSEC;

DATA;
#10=MECHANICAL_DESIGN_GEOMETRIC_PRESENTATION_REPRESENTATION('',(#85,#90,
#89,#88,#87,#86,#83,#84),#170);
#11=SHAPE_REPRESENTATION_RELATIONSHIP('SRR','None',#179,#12);
#12=ADVANCED_BREP_SHAPE_REPRESENTATION($,(#99),#169);
#13=CYLINDRICAL_SURFACE('',#106,10.4775);
#14=CYLINDRICAL_SURFACE('',#111,7.5);
#15=CYLINDRICAL_SURFACE('',#114,9.);
#16=PLANE('',#104);
#17=PLANE('',#108);
#18=FACE_BOUND('',#33,.T.);
#19=FACE_BOUND('',#34,.T.);
#20=FACE_BOUND('',#35,.T.);
#21=FACE_BOUND('',#37,.T.);
#22=FACE_BOUND('',#38,.T.);
#23=FACE_BOUND('',#39,.T.);
#24=FACE_BOUND('',#41,.T.);
#25=FACE_BOUND('',#43,.T.);
#26=FACE_BOUND('',#45,.T.);
#27=FACE_OUTER_BOUND('',#32,.T.);
#28=FACE_OUTER_BOUND('',#36,.T.);
#29=FACE_OUTER_BOUND('',#40,.T.);
#30=FACE_OUTER_BOUND('',#42,.T.);
#31=FACE_OUTER_BOUND('',#44,.T.);
#32=EDGE_LOOP('',(#67));
#33=EDGE_LOOP('',(#68));
#34=EDGE_LOOP('',(#69));
#35=EDGE_LOOP('',(#70));
#36=EDGE_LOOP('',(#71));
#37=EDGE_LOOP('',(#72));
#38=EDGE_LOOP('',(#73));
#39=EDGE_LOOP('',(#74));
#40=EDGE_LOOP('',(#75));
#41=EDGE_LOOP('',(#76));
#42=EDGE_LOOP('',(#77));
#43=EDGE_LOOP('',(#78));
#44=EDGE_LOOP('',(#79));
#45=EDGE_LOOP('',(#80));
#46=CIRCLE('',#102,9.47749999999999);
#47=CIRCLE('',#103,10.4775);
#48=CIRCLE('',#105,7.5);
#49=CIRCLE('',#107,10.4775);
#50=CIRCLE('',#109,7.5);
#51=CIRCLE('',#110,9.00000000000001);
#52=CIRCLE('',#113,9.);
#53=VERTEX_POINT('',#147);
#54=VERTEX_POINT('',#149);
#55=VERTEX_POINT('',#152);
#56=VERTEX_POINT('',#155);
#57=VERTEX_POINT('',#158);
#58=VERTEX_POINT('',#160);
#59=VERTEX_POINT('',#164);
#60=EDGE_CURVE('',#53,#53,#46,.T.);
#61=EDGE_CURVE('',#54,#54,#47,.T.);
#62=EDGE_CURVE('',#55,#55,#48,.T.);
#63=EDGE_CURVE('',#56,#56,#49,.T.);
#64=EDGE_CURVE('',#57,#57,#50,.T.);
#65=EDGE_CURVE('',#58,#58,#51,.T.);
#66=EDGE_CURVE('',#59,#59,#52,.T.);
#67=ORIENTED_EDGE('',*,*,#60,.T.);
#68=ORIENTED_EDGE('',*,*,#61,.T.);
#69=ORIENTED_EDGE('',*,*,#62,.T.);
#70=ORIENTED_EDGE('',*,*,#60,.F.);
#71=ORIENTED_EDGE('',*,*,#63,.F.);
#72=ORIENTED_EDGE('',*,*,#61,.F.);
#73=ORIENTED_EDGE('',*,*,#64,.F.);
#74=ORIENTED_EDGE('',*,*,#65,.T.);
#75=ORIENTED_EDGE('',*,*,#62,.F.);
#76=ORIENTED_EDGE('',*,*,#64,.T.);
#77=ORIENTED_EDGE('',*,*,#66,.F.);
#78=ORIENTED_EDGE('',*,*,#63,.T.);
#79=ORIENTED_EDGE('',*,*,#65,.F.);
#80=ORIENTED_EDGE('',*,*,#66,.T.);
#81=CONICAL_SURFACE('',#101,9.97749999999999,45.0000000000001);
#82=CONICAL_SURFACE('',#112,9.73875,60.0000000000004);
#83=STYLED_ITEM('',(#188),#91);
#84=STYLED_ITEM('',(#188),#92);
#85=STYLED_ITEM('',(#188),#93);
#86=STYLED_ITEM('',(#188),#94);
#87=STYLED_ITEM('',(#188),#95);
#88=STYLED_ITEM('',(#188),#96);
#89=STYLED_ITEM('',(#188),#97);
#90=STYLED_ITEM('',(#188),#99);
#91=ADVANCED_FACE('',(#27,#18),#81,.T.);
#92=ADVANCED_FACE('',(#19,#20),#16,.T.);
#93=ADVANCED_FACE('',(#28,#21),#13,.T.);
#94=ADVANCED_FACE('',(#22,#23),#17,.T.);
#95=ADVANCED_FACE('',(#29,#24),#14,.F.);
#96=ADVANCED_FACE('',(#30,#25),#82,.T.);
#97=ADVANCED_FACE('',(#31,#26),#15,.T.);
#98=CLOSED_SHELL('',(#91,#92,#93,#94,#95,#96,#97));
#99=MANIFOLD_SOLID_BREP('Volumenk\X\F6rper1',#98);
#100=AXIS2_PLACEMENT_3D('placement',#145,#115,#116);
#101=AXIS2_PLACEMENT_3D('',#146,#117,#118);
#102=AXIS2_PLACEMENT_3D('',#148,#119,#120);
#103=AXIS2_PLACEMENT_3D('',#150,#121,#122);
#104=AXIS2_PLACEMENT_3D('',#151,#123,#124);
#105=AXIS2_PLACEMENT_3D('',#153,#125,#126);
#106=AXIS2_PLACEMENT_3D('',#154,#127,#128);
#107=AXIS2_PLACEMENT_3D('',#156,#129,#130);
#108=AXIS2_PLACEMENT_3D('',#157,#131,#132);
#109=AXIS2_PLACEMENT_3D('',#159,#133,#134);
#110=AXIS2_PLACEMENT_3D('',#161,#135,#136);
#111=AXIS2_PLACEMENT_3D('',#162,#137,#138);
#112=AXIS2_PLACEMENT_3D('',#163,#139,#140);
#113=AXIS2_PLACEMENT_3D('',#165,#141,#142);
#114=AXIS2_PLACEMENT_3D('',#166,#143,#144);
#115=DIRECTION('axis',(0.,0.,1.));
#116=DIRECTION('refdir',(1.,0.,0.));
#117=DIRECTION('center_axis',(0.,1.,0.));
#118=DIRECTION('ref_axis',(1.,0.,0.));
#119=DIRECTION('center_axis',(0.,1.,0.));
#120=DIRECTION('ref_axis',(1.,0.,0.));
#121=DIRECTION('center_axis',(0.,-1.,0.));
#122=DIRECTION('ref_axis',(1.,0.,0.));
#123=DIRECTION('center_axis',(0.,-1.,0.));
#124=DIRECTION('ref_axis',(0.,0.,-1.));
#125=DIRECTION('center_axis',(0.,1.,0.));
#126=DIRECTION('ref_axis',(-1.,0.,0.));
#127=DIRECTION('center_axis',(0.,1.,0.));
#128=DIRECTION('ref_axis',(-1.,0.,0.));
#129=DIRECTION('center_axis',(0.,1.,0.));
#130=DIRECTION('ref_axis',(-1.,0.,0.));
#131=DIRECTION('center_axis',(0.,1.,0.));
#132=DIRECTION('ref_axis',(0.,0.,1.));
#133=DIRECTION('center_axis',(0.,1.,0.));
#134=DIRECTION('ref_axis',(-1.,0.,0.));
#135=DIRECTION('center_axis',(0.,1.,0.));
#136=DIRECTION('ref_axis',(-1.,0.,0.));
#137=DIRECTION('center_axis',(0.,1.,0.));
#138=DIRECTION('ref_axis',(-1.,0.,0.));
#139=DIRECTION('center_axis',(0.,-1.,0.));
#140=DIRECTION('ref_axis',(-1.,0.,0.));
#141=DIRECTION('center_axis',(0.,1.,0.));
#142=DIRECTION('ref_axis',(-1.,0.,0.));
#143=DIRECTION('center_axis',(0.,1.,0.));
#144=DIRECTION('ref_axis',(-1.,0.,0.));
#145=CARTESIAN_POINT('',(0.,0.,0.));
#146=CARTESIAN_POINT('Origin',(0.,-2.81784599007067,0.));
#147=CARTESIAN_POINT('',(-9.47749999999999,-3.31784599007067,1.1606590038919E-015));
#148=CARTESIAN_POINT('Origin',(0.,-3.31784599007067,0.));
#149=CARTESIAN_POINT('',(-10.4775,-2.31784599007067,-1.28312368380664E-015));
#150=CARTESIAN_POINT('Origin',(0.,-2.31784599007067,0.));
#151=CARTESIAN_POINT('Origin',(-8.98874999999999,-3.31784599007067,0.));
#152=CARTESIAN_POINT('',(-7.5,-3.31784599007067,0.));
#153=CARTESIAN_POINT('Origin',(0.,-3.31784599007067,0.));
#154=CARTESIAN_POINT('Origin',(0.,3.75563649856549,0.));
#155=CARTESIAN_POINT('',(-10.4775,10.8291189872017,0.));
#156=CARTESIAN_POINT('Origin',(0.,10.8291189872017,0.));
#157=CARTESIAN_POINT('Origin',(-8.25,16.6821540099293,0.));
#158=CARTESIAN_POINT('',(-7.5,16.6821540099293,0.));
#159=CARTESIAN_POINT('Origin',(0.,16.6821540099293,0.));
#160=CARTESIAN_POINT('',(-9.00000000000001,16.6821540099293,0.));
#161=CARTESIAN_POINT('Origin',(0.,16.6821540099293,0.));
#162=CARTESIAN_POINT('Origin',(0.,6.68215400992933,0.));
#163=CARTESIAN_POINT('Origin',(0.,11.2556364985655,0.));
#164=CARTESIAN_POINT('',(-9.,11.6821540099293,0.));
#165=CARTESIAN_POINT('Origin',(0.,11.6821540099293,0.));
#166=CARTESIAN_POINT('Origin',(0.,14.1821540099293,0.));
#167=UNCERTAINTY_MEASURE_WITH_UNIT(LENGTH_MEASURE(0.01),#171,
'DISTANCE_ACCURACY_VALUE',
'Maximum model space distance between geometric entities at asserted c
onnectivities');
#168=UNCERTAINTY_MEASURE_WITH_UNIT(LENGTH_MEASURE(1.E-006),#171,
'DISTANCE_ACCURACY_VALUE',
'Maximum model space distance between geometric entities at asserted c
onnectivities');
#169=(
GEOMETRIC_REPRESENTATION_CONTEXT(3)
GLOBAL_UNCERTAINTY_ASSIGNED_CONTEXT((#167))
GLOBAL_UNIT_ASSIGNED_CONTEXT((#171,#174,#172))
REPRESENTATION_CONTEXT('','3D')
);
#170=(
GEOMETRIC_REPRESENTATION_CONTEXT(3)
GLOBAL_UNCERTAINTY_ASSIGNED_CONTEXT((#168))
GLOBAL_UNIT_ASSIGNED_CONTEXT((#171,#174,#172))
REPRESENTATION_CONTEXT('','3D')
);
#171=(
LENGTH_UNIT()
NAMED_UNIT(*)
SI_UNIT(.MILLI.,.METRE.)
);
#172=(
NAMED_UNIT(*)
SI_UNIT($,.STERADIAN.)
SOLID_ANGLE_UNIT()
);
#173=DIMENSIONAL_EXPONENTS(0.,0.,0.,0.,0.,0.,0.);
#174=(
CONVERSION_BASED_UNIT('degree',#176)
NAMED_UNIT(#173)
PLANE_ANGLE_UNIT()
);
#175=(
NAMED_UNIT(*)
PLANE_ANGLE_UNIT()
SI_UNIT($,.RADIAN.)
);
#176=PLANE_ANGLE_MEASURE_WITH_UNIT(PLANE_ANGLE_MEASURE(0.01745329252),#175);
#177=SHAPE_DEFINITION_REPRESENTATION(#178,#179);
#178=PRODUCT_DEFINITION_SHAPE('',$,#181);
#179=SHAPE_REPRESENTATION('',(#100),#169);
#180=PRODUCT_DEFINITION_CONTEXT('part definition',#185,'design');
#181=PRODUCT_DEFINITION('1012600001210','1012600001210',#182,#180);
#182=PRODUCT_DEFINITION_FORMATION('',$,#187);
#183=PRODUCT_RELATED_PRODUCT_CATEGORY('1012600001210','1012600001210',(#187));
#184=APPLICATION_PROTOCOL_DEFINITION('international standard',
'automotive_design',2009,#185);
#185=APPLICATION_CONTEXT(
'Core Data for Automotive Mechanical Design Process');
#186=PRODUCT_CONTEXT('part definition',#185,'mechanical');
#187=PRODUCT('1012600001210','1012600001210',$,(#186));
#188=PRESENTATION_STYLE_ASSIGNMENT((#189));
#189=SURFACE_STYLE_USAGE(.BOTH.,#190);
#190=SURFACE_SIDE_STYLE($,(#191));
#191=SURFACE_STYLE_FILL_AREA(#192);
#192=FILL_AREA_STYLE($,(#193));
#193=FILL_AREA_STYLE_COLOUR($,#194);
#194=COLOUR_RGB('',0.505882352941176,0.505882352941176,0.505882352941176);
ENDSEC;
END-ISO-10303-21;
